ISO-10303-21;
HEADER;
FILE_DESCRIPTION (( 'STEP AP214' ),
    '1' );
FILE_NAME ('GCC-411113.STEP',
    '2020-02-15T10:10:52',
    ( 'China' ),
    ( 'Microsoft' ),
    'SwSTEP 2.0',
    'SolidWorks 2018',
    '' );
FILE_SCHEMA (( 'AUTOMOTIVE_DESIGN' ));
ENDSEC;

DATA;
#1 = VERTEX_POINT ( 'NONE', #170 ) ;
#2 = ADVANCED_FACE ( 'NONE', ( #134 ), #82, .F. ) ;
#3 = CARTESIAN_POINT ( 'NONE',  ( 0.0000000000000000000, 0.0000000000000000000, 3.000000000000000000 ) ) ;
#4 = AXIS2_PLACEMENT_3D ( 'NONE', #11, #6, #191 ) ;
#5 = FACE_OUTER_BOUND ( 'NONE', #116, .T. ) ;
#6 = DIRECTION ( 'NONE',  ( -0.0000000000000000000, -0.0000000000000000000, -1.000000000000000000 ) ) ;
#7 = CARTESIAN_POINT ( 'NONE',  ( 24.70000000000001350, 3.043247295881173796E-15, 3.000000000000000000 ) ) ;
#8 = FILL_AREA_STYLE ('',( #44 ) ) ;
#9 = DIRECTION ( 'NONE',  ( 1.000000000000000000, 0.0000000000000000000, 0.0000000000000000000 ) ) ;
#10 = LINE ( 'NONE', #50, #47 ) ;
#11 = CARTESIAN_POINT ( 'NONE',  ( 0.0000000000000000000, 0.0000000000000000000, 3.000000000000000000 ) ) ;
#12 = VECTOR ( 'NONE', #208, 1000.000000000000000 ) ;
#13 = VERTEX_POINT ( 'NONE', #227 ) ;
#14 =( GEOMETRIC_REPRESENTATION_CONTEXT ( 3 ) GLOBAL_UNCERTAINTY_ASSIGNED_CONTEXT ( ( #150 ) ) GLOBAL_UNIT_ASSIGNED_CONTEXT ( ( #66, #105, #49 ) ) REPRESENTATION_CONTEXT ( 'NONE', 'WORKASPACE' ) );
#15 = SHAPE_DEFINITION_REPRESENTATION ( #88, #183 ) ;
#16 = VECTOR ( 'NONE', #185, 1000.000000000000000 ) ;
#17 = EDGE_CURVE ( 'NONE', #58, #216, #177, .T. ) ;
#18 = ADVANCED_FACE ( 'NONE', ( #130 ), #79, .T. ) ;
#19 = EDGE_CURVE ( 'NONE', #58, #148, #115, .T. ) ;
#20 = ORIENTED_EDGE ( 'NONE', *, *, #89, .T. ) ;
#21 = UNCERTAINTY_MEASURE_WITH_UNIT (LENGTH_MEASURE( 1.000000000000000082E-05 ), #61, 'distance_accuracy_value', 'NONE');
#22 = DIRECTION ( 'NONE',  ( 1.000000000000000000, 0.0000000000000000000, 0.0000000000000000000 ) ) ;
#23 = AXIS2_PLACEMENT_3D ( 'NONE', #103, #159, #123 ) ;
#24 = CYLINDRICAL_SURFACE ( 'NONE', #4, 25.00000000000000000 ) ;
#25 = CARTESIAN_POINT ( 'NONE',  ( 0.0000000000000000000, 0.0000000000000000000, 3.000000000000000000 ) ) ;
#26 = FILL_AREA_STYLE_COLOUR ( '', #65 ) ;
#27 = DIRECTION ( 'NONE',  ( -0.0000000000000000000, -0.0000000000000000000, -1.000000000000000000 ) ) ;
#28 = VERTEX_POINT ( 'NONE', #87 ) ;
#29 = APPLICATION_CONTEXT ( 'automotive_design' ) ;
#30 = AXIS2_PLACEMENT_3D ( 'NONE', #175, #96, #22 ) ;
#31 = FACE_OUTER_BOUND ( 'NONE', #74, .T. ) ;
#32 = AXIS2_PLACEMENT_3D ( 'NONE', #231, #59, #190 ) ;
#33 = ORIENTED_EDGE ( 'NONE', *, *, #57, .F. ) ;
#34 = PRODUCT_DEFINITION ( 'Î´Öª', '', #51, #189 ) ;
#35 = CARTESIAN_POINT ( 'NONE',  ( 0.0000000000000000000, 0.0000000000000000000, 3.000000000000000000 ) ) ;
#36 = CIRCLE ( 'NONE', #132, 24.69999999999999574 ) ;
#37 = DIRECTION ( 'NONE',  ( 0.0000000000000000000, 0.0000000000000000000, 1.000000000000000000 ) ) ;
#38 = EDGE_CURVE ( 'NONE', #28, #127, #174, .T. ) ;
#39 =( NAMED_UNIT ( * ) PLANE_ANGLE_UNIT ( ) SI_UNIT ( $, .RADIAN. ) );
#40 = FACE_OUTER_BOUND ( 'NONE', #106, .T. ) ;
#41 = EDGE_LOOP ( 'NONE', ( #147, #201, #108, #67 ) ) ;
#42 = SURFACE_STYLE_USAGE ( .BOTH. , #213 ) ;
#43 = DIRECTION ( 'NONE',  ( 1.000000000000000000, 0.0000000000000000000, 0.0000000000000000000 ) ) ;
#44 = FILL_AREA_STYLE_COLOUR ( '', #52 ) ;
#45 = ORIENTED_EDGE ( 'NONE', *, *, #76, .F. ) ;
#46 = DIRECTION ( 'NONE',  ( -1.000000000000000000, 0.0000000000000000000, 0.0000000000000000000 ) ) ;
#47 = VECTOR ( 'NONE', #178, 1000.000000000000000 ) ;
#48 = ORIENTED_EDGE ( 'NONE', *, *, #38, .F. ) ;
#49 =( NAMED_UNIT ( * ) SI_UNIT ( $, .STERADIAN. ) SOLID_ANGLE_UNIT ( ) );
#50 = CARTESIAN_POINT ( 'NONE',  ( 25.00000000000000000, 3.061616997868383043E-15, 3.000000000000000000 ) ) ;
#51 = PRODUCT_DEFINITION_FORMATION_WITH_SPECIFIED_SOURCE ( 'ÈÎºÎ', '', #71, .NOT_KNOWN. ) ;
#52 = COLOUR_RGB ( '',0.9411764705882352811, 0.9607843137254902244, 0.9686274509803921573 ) ;
#53 = ORIENTED_EDGE ( 'NONE', *, *, #186, .F. ) ;
#54 = ORIENTED_EDGE ( 'NONE', *, *, #236, .F. ) ;
#55 = STYLED_ITEM ( 'NONE', ( #172 ), #183 ) ;
#56 = ORIENTED_EDGE ( 'NONE', *, *, #90, .T. ) ;
#57 = EDGE_CURVE ( 'NONE', #28, #1, #126, .T. ) ;
#58 = VERTEX_POINT ( 'NONE', #72 ) ;
#59 = DIRECTION ( 'NONE',  ( 0.0000000000000000000, 0.0000000000000000000, 1.000000000000000000 ) ) ;
#60 = EDGE_CURVE ( 'NONE', #148, #198, #218, .T. ) ;
#61 =( LENGTH_UNIT ( ) NAMED_UNIT ( * ) SI_UNIT ( .MILLI., .METRE. ) );
#62 = ORIENTED_EDGE ( 'NONE', *, *, #90, .F. ) ;
#63 = CARTESIAN_POINT ( 'NONE',  ( -25.00000000000000000, 0.0000000000000000000, 3.000000000000000000 ) ) ;
#64 = DIRECTION ( 'NONE',  ( -0.0000000000000000000, -0.0000000000000000000, 1.000000000000000000 ) ) ;
#65 = COLOUR_RGB ( '',0.9411764705882352811, 0.9607843137254902244, 0.9686274509803921573 ) ;
#66 =( LENGTH_UNIT ( ) NAMED_UNIT ( * ) SI_UNIT ( .MILLI., .METRE. ) );
#67 = ORIENTED_EDGE ( 'NONE', *, *, #113, .F. ) ;
#68 = PRESENTATION_LAYER_ASSIGNMENT (  '', '', ( #55 ) ) ;
#69 = ORIENTED_EDGE ( 'NONE', *, *, #102, .F. ) ;
#70 = ADVANCED_FACE ( 'NONE', ( #167 ), #223, .T. ) ;
#71 = PRODUCT ( 'GCC-411113', 'GCC-411113', '', ( #144 ) ) ;
#72 = CARTESIAN_POINT ( 'NONE',  ( -24.70000000000001350, 0.0000000000000000000, 3.000000000000000000 ) ) ;
#73 = EDGE_CURVE ( 'NONE', #127, #13, #112, .T. ) ;
#74 = EDGE_LOOP ( 'NONE', ( #33, #53, #139, #239 ) ) ;
#75 = DIRECTION ( 'NONE',  ( 1.000000000000000000, 0.0000000000000000000, 0.0000000000000000000 ) ) ;
#76 = EDGE_CURVE ( 'NONE', #13, #1, #197, .T. ) ;
#77 = DIRECTION ( 'NONE',  ( -0.0000000000000000000, -0.0000000000000000000, -1.000000000000000000 ) ) ;
#78 = CONICAL_SURFACE ( 'NONE', #240, 24.70000000000001350, 0.7853981633974425058 ) ;
#79 = CONICAL_SURFACE ( 'NONE', #169, 24.70000000000001350, 0.7853981633974425058 ) ;
#80 = DIRECTION ( 'NONE',  ( 1.000000000000000000, 0.0000000000000000000, 0.0000000000000000000 ) ) ;
#81 = DIRECTION ( 'NONE',  ( 1.000000000000000000, 0.0000000000000000000, 0.0000000000000000000 ) ) ;
#82 = PLANE ( 'NONE',  #32 ) ;
#83 = CARTESIAN_POINT ( 'NONE',  ( 0.0000000000000000000, 0.0000000000000000000, 0.3000000000000051514 ) ) ;
#84 = APPLICATION_PROTOCOL_DEFINITION ( 'draft international standard', 'automotive_design', 1998, #194 ) ;
#85 = MECHANICAL_DESIGN_GEOMETRIC_PRESENTATION_REPRESENTATION (  '', ( #166 ), #94 ) ;
#86 =( LENGTH_UNIT ( ) NAMED_UNIT ( * ) SI_UNIT ( .MILLI., .METRE. ) );
#87 = CARTESIAN_POINT ( 'NONE',  ( -24.69999999999999574, 3.043247295881171824E-15, 0.0000000000000000000 ) ) ;
#88 = PRODUCT_DEFINITION_SHAPE ( 'NONE', 'NONE',  #34 ) ;
#89 = EDGE_CURVE ( 'NONE', #1, #13, #152, .T. ) ;
#90 = EDGE_CURVE ( 'NONE', #148, #58, #212, .T. ) ;
#91 = CARTESIAN_POINT ( 'NONE',  ( 25.00000000000000000, 0.0000000000000000000, 0.3000000000000051514 ) ) ;
#92 = PRESENTATION_STYLE_ASSIGNMENT (( #42 ) ) ;
#93 = DIRECTION ( 'NONE',  ( -0.7071067811865475727, 8.659560562354931626E-17, 0.7071067811865474617 ) ) ;
#94 =( GEOMETRIC_REPRESENTATION_CONTEXT ( 3 ) GLOBAL_UNCERTAINTY_ASSIGNED_CONTEXT ( ( #21 ) ) GLOBAL_UNIT_ASSIGNED_CONTEXT ( ( #61, #39, #176 ) ) REPRESENTATION_CONTEXT ( 'NONE', 'WORKASPACE' ) );
#95 = DIRECTION ( 'NONE',  ( 0.0000000000000000000, 0.0000000000000000000, 1.000000000000000000 ) ) ;
#96 = DIRECTION ( 'NONE',  ( 0.0000000000000000000, 0.0000000000000000000, 1.000000000000000000 ) ) ;
#97 = CONICAL_SURFACE ( 'NONE', #125, 25.00000000000000000, 0.7853981633974482790 ) ;
#98 = CARTESIAN_POINT ( 'NONE',  ( -24.70000000000001350, 0.0000000000000000000, 3.000000000000000000 ) ) ;
#99 = DIRECTION ( 'NONE',  ( 0.0000000000000000000, 0.0000000000000000000, -1.000000000000000000 ) ) ;
#100 = DIRECTION ( 'NONE',  ( 1.000000000000000000, 0.0000000000000000000, 0.0000000000000000000 ) ) ;
#101 = CARTESIAN_POINT ( 'NONE',  ( 0.0000000000000000000, 0.0000000000000000000, 0.0000000000000000000 ) ) ;
#102 = EDGE_CURVE ( 'NONE', #216, #198, #111, .T. ) ;
#103 = CARTESIAN_POINT ( 'NONE',  ( 0.0000000000000000000, 0.0000000000000000000, 0.0000000000000000000 ) ) ;
#104 = ORIENTED_EDGE ( 'NONE', *, *, #17, .F. ) ;
#105 =( NAMED_UNIT ( * ) PLANE_ANGLE_UNIT ( ) SI_UNIT ( $, .RADIAN. ) );
#106 = EDGE_LOOP ( 'NONE', ( #48, #138, #45, #168 ) ) ;
#107 = AXIS2_PLACEMENT_3D ( 'NONE', #119, #173, #234 ) ;
#108 = ORIENTED_EDGE ( 'NONE', *, *, #17, .T. ) ;
#109 = EDGE_LOOP ( 'NONE', ( #124, #56 ) ) ;
#110 = ADVANCED_FACE ( 'NONE', ( #151 ), #78, .T. ) ;
#111 = CIRCLE ( 'NONE', #215, 25.00000000000000000 ) ;
#112 = LINE ( 'NONE', #91, #16 ) ;
#113 = EDGE_CURVE ( 'NONE', #198, #216, #238, .T. ) ;
#114 = DIRECTION ( 'NONE',  ( 1.000000000000000000, 0.0000000000000000000, 0.0000000000000000000 ) ) ;
#115 = CIRCLE ( 'NONE', #160, 24.70000000000001350 ) ;
#116 = EDGE_LOOP ( 'NONE', ( #54, #142, #206, #20 ) ) ;
#117 = DIRECTION ( 'NONE',  ( 0.0000000000000000000, 0.0000000000000000000, -1.000000000000000000 ) ) ;
#118 = CARTESIAN_POINT ( 'NONE',  ( -25.00000000000000000, 0.0000000000000000000, 2.700000000000008615 ) ) ;
#119 = CARTESIAN_POINT ( 'NONE',  ( 0.0000000000000000000, 0.0000000000000000000, 3.000000000000000000 ) ) ;
#120 = VECTOR ( 'NONE', #187, 1000.000000000000000 ) ;
#121 = CARTESIAN_POINT ( 'NONE',  ( 25.00000000000000000, 3.061616997868383043E-15, 2.700000000000008615 ) ) ;
#122 = DIRECTION ( 'NONE',  ( 1.000000000000000000, 0.0000000000000000000, 0.0000000000000000000 ) ) ;
#123 = DIRECTION ( 'NONE',  ( 1.000000000000000000, 0.0000000000000000000, 0.0000000000000000000 ) ) ;
#124 = ORIENTED_EDGE ( 'NONE', *, *, #19, .T. ) ;
#125 = AXIS2_PLACEMENT_3D ( 'NONE', #83, #209, #80 ) ;
#126 = LINE ( 'NONE', #204, #226 ) ;
#127 = VERTEX_POINT ( 'NONE', #135 ) ;
#128 = PRESENTATION_LAYER_ASSIGNMENT (  '', '', ( #166 ) ) ;
#129 = DIRECTION ( 'NONE',  ( 1.000000000000000000, 0.0000000000000000000, 0.0000000000000000000 ) ) ;
#130 = FACE_OUTER_BOUND ( 'NONE', #222, .T. ) ;
#131 = DIRECTION ( 'NONE',  ( -0.0000000000000000000, -0.0000000000000000000, -1.000000000000000000 ) ) ;
#132 = AXIS2_PLACEMENT_3D ( 'NONE', #101, #27, #75 ) ;
#133 = DIRECTION ( 'NONE',  ( -1.000000000000000000, 0.0000000000000000000, 0.0000000000000000000 ) ) ;
#134 = FACE_OUTER_BOUND ( 'NONE', #156, .T. ) ;
#135 = CARTESIAN_POINT ( 'NONE',  ( 24.69999999999999574, 0.0000000000000000000, 0.0000000000000000000 ) ) ;
#136 = UNCERTAINTY_MEASURE_WITH_UNIT (LENGTH_MEASURE( 1.000000000000000082E-05 ), #86, 'distance_accuracy_value', 'NONE');
#137 = LINE ( 'NONE', #63, #195 ) ;
#138 = ORIENTED_EDGE ( 'NONE', *, *, #57, .T. ) ;
#139 = ORIENTED_EDGE ( 'NONE', *, *, #73, .T. ) ;
#140 = SURFACE_STYLE_USAGE ( .BOTH. , #141 ) ;
#141 = SURFACE_SIDE_STYLE ('',( #221 ) ) ;
#142 = ORIENTED_EDGE ( 'NONE', *, *, #113, .T. ) ;
#143 = MECHANICAL_DESIGN_GEOMETRIC_PRESENTATION_REPRESENTATION (  '', ( #55 ), #158 ) ;
#144 = PRODUCT_CONTEXT ( 'NONE', #29, 'mechanical' ) ;
#145 = MANIFOLD_SOLID_BREP ( 'µ¹½Ç1', #230 ) ;
#146 = ORIENTED_EDGE ( 'NONE', *, *, #60, .T. ) ;
#147 = ORIENTED_EDGE ( 'NONE', *, *, #60, .F. ) ;
#148 = VERTEX_POINT ( 'NONE', #7 ) ;
#149 = ADVANCED_FACE ( 'NONE', ( #5 ), #229, .T. ) ;
#150 = UNCERTAINTY_MEASURE_WITH_UNIT (LENGTH_MEASURE( 1.000000000000000082E-05 ), #66, 'distance_accuracy_value', 'NONE');
#151 = FACE_OUTER_BOUND ( 'NONE', #41, .T. ) ;
#152 = CIRCLE ( 'NONE', #199, 25.00000000000000000 ) ;
#153 = ORIENTED_EDGE ( 'NONE', *, *, #102, .T. ) ;
#154 = DIRECTION ( 'NONE',  ( 1.000000000000000000, 0.0000000000000000000, -0.0000000000000000000 ) ) ;
#155 = AXIS2_PLACEMENT_3D ( 'NONE', #203, #131, #114 ) ;
#156 = EDGE_LOOP ( 'NONE', ( #161, #193 ) ) ;
#157 = CARTESIAN_POINT ( 'NONE',  ( 0.0000000000000000000, 0.0000000000000000000, 2.700000000000008615 ) ) ;
#158 =( GEOMETRIC_REPRESENTATION_CONTEXT ( 3 ) GLOBAL_UNCERTAINTY_ASSIGNED_CONTEXT ( ( #136 ) ) GLOBAL_UNIT_ASSIGNED_CONTEXT ( ( #86, #162, #180 ) ) REPRESENTATION_CONTEXT ( 'NONE', 'WORKASPACE' ) );
#159 = DIRECTION ( 'NONE',  ( 0.0000000000000000000, 0.0000000000000000000, 1.000000000000000000 ) ) ;
#160 = AXIS2_PLACEMENT_3D ( 'NONE', #184, #95, #129 ) ;
#161 = ORIENTED_EDGE ( 'NONE', *, *, #186, .T. ) ;
#162 =( NAMED_UNIT ( * ) PLANE_ANGLE_UNIT ( ) SI_UNIT ( $, .RADIAN. ) );
#163 = AXIS2_PLACEMENT_3D ( 'NONE', #192, #228, #81 ) ;
#164 = ORIENTED_EDGE ( 'NONE', *, *, #236, .T. ) ;
#165 = ADVANCED_FACE ( 'NONE', ( #40 ), #235, .T. ) ;
#166 = STYLED_ITEM ( 'NONE', ( #92 ), #145 ) ;
#167 = FACE_OUTER_BOUND ( 'NONE', #109, .T. ) ;
#168 = ORIENTED_EDGE ( 'NONE', *, *, #73, .F. ) ;
#169 = AXIS2_PLACEMENT_3D ( 'NONE', #3, #117, #46 ) ;
#170 = CARTESIAN_POINT ( 'NONE',  ( -25.00000000000000000, 0.0000000000000000000, 0.3000000000000051514 ) ) ;
#171 = DIRECTION ( 'NONE',  ( 0.0000000000000000000, 0.0000000000000000000, -1.000000000000000000 ) ) ;
#172 = PRESENTATION_STYLE_ASSIGNMENT (( #140 ) ) ;
#173 = DIRECTION ( 'NONE',  ( -0.0000000000000000000, -0.0000000000000000000, -1.000000000000000000 ) ) ;
#174 = CIRCLE ( 'NONE', #155, 24.69999999999999574 ) ;
#175 = CARTESIAN_POINT ( 'NONE',  ( 0.0000000000000000000, 0.0000000000000000000, 3.000000000000000000 ) ) ;
#176 =( NAMED_UNIT ( * ) SI_UNIT ( $, .STERADIAN. ) SOLID_ANGLE_UNIT ( ) );
#177 = LINE ( 'NONE', #98, #12 ) ;
#178 = DIRECTION ( 'NONE',  ( -0.0000000000000000000, -0.0000000000000000000, -1.000000000000000000 ) ) ;
#179 = EDGE_CURVE ( 'NONE', #216, #1, #137, .T. ) ;
#180 =( NAMED_UNIT ( * ) SI_UNIT ( $, .STERADIAN. ) SOLID_ANGLE_UNIT ( ) );
#181 = FACE_OUTER_BOUND ( 'NONE', #200, .T. ) ;
#182 = ADVANCED_FACE ( 'NONE', ( #31 ), #97, .T. ) ;
#183 = ADVANCED_BREP_SHAPE_REPRESENTATION ( 'GCC-411113', ( #145, #23 ), #14 ) ;
#184 = CARTESIAN_POINT ( 'NONE',  ( 0.0000000000000000000, 0.0000000000000000000, 3.000000000000000000 ) ) ;
#185 = DIRECTION ( 'NONE',  ( 0.7071067811865475727, 0.0000000000000000000, 0.7071067811865474617 ) ) ;
#186 = EDGE_CURVE ( 'NONE', #127, #28, #36, .T. ) ;
#187 = DIRECTION ( 'NONE',  ( 0.7071067811865434649, 8.659560562354884787E-17, -0.7071067811865516806 ) ) ;
#188 = CARTESIAN_POINT ( 'NONE',  ( 0.0000000000000000000, 0.0000000000000000000, 0.3000000000000051514 ) ) ;
#189 = PRODUCT_DEFINITION_CONTEXT ( 'detailed design', #194, 'design' ) ;
#190 = DIRECTION ( 'NONE',  ( 1.000000000000000000, 0.0000000000000000000, -0.0000000000000000000 ) ) ;
#191 = DIRECTION ( 'NONE',  ( -1.000000000000000000, 0.0000000000000000000, 0.0000000000000000000 ) ) ;
#192 = CARTESIAN_POINT ( 'NONE',  ( 0.0000000000000000000, 0.0000000000000000000, 0.3000000000000051514 ) ) ;
#193 = ORIENTED_EDGE ( 'NONE', *, *, #38, .T. ) ;
#194 = APPLICATION_CONTEXT ( 'automotive_design' ) ;
#195 = VECTOR ( 'NONE', #77, 1000.000000000000000 ) ;
#196 = ORIENTED_EDGE ( 'NONE', *, *, #179, .F. ) ;
#197 = CIRCLE ( 'NONE', #163, 25.00000000000000000 ) ;
#198 = VERTEX_POINT ( 'NONE', #121 ) ;
#199 = AXIS2_PLACEMENT_3D ( 'NONE', #188, #64, #43 ) ;
#200 = EDGE_LOOP ( 'NONE', ( #153, #164, #207, #196 ) ) ;
#201 = ORIENTED_EDGE ( 'NONE', *, *, #19, .F. ) ;
#202 = AXIS2_PLACEMENT_3D ( 'NONE', #210, #99, #122 ) ;
#203 = CARTESIAN_POINT ( 'NONE',  ( 0.0000000000000000000, 0.0000000000000000000, 0.0000000000000000000 ) ) ;
#204 = CARTESIAN_POINT ( 'NONE',  ( -25.00000000000000000, 3.061616997868382254E-15, 0.3000000000000051514 ) ) ;
#205 = PRODUCT_RELATED_PRODUCT_CATEGORY ( 'part', '', ( #71 ) ) ;
#206 = ORIENTED_EDGE ( 'NONE', *, *, #179, .T. ) ;
#207 = ORIENTED_EDGE ( 'NONE', *, *, #76, .T. ) ;
#208 = DIRECTION ( 'NONE',  ( -0.7071067811865434649, 0.0000000000000000000, -0.7071067811865516806 ) ) ;
#209 = DIRECTION ( 'NONE',  ( -0.0000000000000000000, -0.0000000000000000000, 1.000000000000000000 ) ) ;
#210 = CARTESIAN_POINT ( 'NONE',  ( 0.0000000000000000000, 0.0000000000000000000, 2.700000000000008615 ) ) ;
#211 = DIRECTION ( 'NONE',  ( 0.0000000000000000000, 0.0000000000000000000, -1.000000000000000000 ) ) ;
#212 = CIRCLE ( 'NONE', #30, 24.70000000000001350 ) ;
#213 = SURFACE_SIDE_STYLE ('',( #225 ) ) ;
#214 = APPLICATION_PROTOCOL_DEFINITION ( 'draft international standard', 'automotive_design', 1998, #29 ) ;
#215 = AXIS2_PLACEMENT_3D ( 'NONE', #157, #171, #100 ) ;
#216 = VERTEX_POINT ( 'NONE', #118 ) ;
#217 = AXIS2_PLACEMENT_3D ( 'NONE', #232, #233, #9 ) ;
#218 = LINE ( 'NONE', #224, #120 ) ;
#219 = AXIS2_PLACEMENT_3D ( 'NONE', #35, #37, #154 ) ;
#220 = ADVANCED_FACE ( 'NONE', ( #181 ), #24, .T. ) ;
#221 = SURFACE_STYLE_FILL_AREA ( #237 ) ;
#222 = EDGE_LOOP ( 'NONE', ( #62, #146, #69, #104 ) ) ;
#223 = PLANE ( 'NONE',  #219 ) ;
#224 = CARTESIAN_POINT ( 'NONE',  ( 24.70000000000001350, 3.024877593893964155E-15, 3.000000000000000000 ) ) ;
#225 = SURFACE_STYLE_FILL_AREA ( #8 ) ;
#226 = VECTOR ( 'NONE', #93, 1000.000000000000000 ) ;
#227 = CARTESIAN_POINT ( 'NONE',  ( 25.00000000000000000, 3.061616997868383043E-15, 0.3000000000000051514 ) ) ;
#228 = DIRECTION ( 'NONE',  ( -0.0000000000000000000, -0.0000000000000000000, 1.000000000000000000 ) ) ;
#229 = CYLINDRICAL_SURFACE ( 'NONE', #107, 25.00000000000000000 ) ;
#230 = CLOSED_SHELL ( 'NONE', ( #18, #165, #220, #149, #70, #2, #182, #110 ) ) ;
#231 = CARTESIAN_POINT ( 'NONE',  ( 0.0000000000000000000, 0.0000000000000000000, 0.0000000000000000000 ) ) ;
#232 = CARTESIAN_POINT ( 'NONE',  ( 0.0000000000000000000, 0.0000000000000000000, 0.3000000000000051514 ) ) ;
#233 = DIRECTION ( 'NONE',  ( -0.0000000000000000000, -0.0000000000000000000, 1.000000000000000000 ) ) ;
#234 = DIRECTION ( 'NONE',  ( -1.000000000000000000, 0.0000000000000000000, 0.0000000000000000000 ) ) ;
#235 = CONICAL_SURFACE ( 'NONE', #217, 25.00000000000000000, 0.7853981633974482790 ) ;
#236 = EDGE_CURVE ( 'NONE', #198, #13, #10, .T. ) ;
#237 = FILL_AREA_STYLE ('',( #26 ) ) ;
#238 = CIRCLE ( 'NONE', #202, 25.00000000000000000 ) ;
#239 = ORIENTED_EDGE ( 'NONE', *, *, #89, .F. ) ;
#240 = AXIS2_PLACEMENT_3D ( 'NONE', #25, #211, #133 ) ;
ENDSEC;
END-ISO-10303-21;
